Olá, estamos melhorando nosso sistema e preparando um novo site, você poderia perder 1 minuto do seu tempo e dar sugestões de melhoria e novas funcionalidades para o site e o aplicativo? Dar suas sugestões

Católica

Exibir cifra de:

Violão Guitarra Contra-Baixo Bateria

Alterar tom:

Alterar texto:

Vem e Eu Mostrarei

Católica

Tom: D


E|-----0-2-3--3-3/5-5/7/8--8-7-5--3--0-----|
B|-3-3----------------------------------3--|
G|-----------------------------------------|
D|-----------------------------------------|
A|-----------------------------------------|
E|-----------------------------------------| (2x)


E|-----0-2-3-3-3/5-5/7/8--8-7-5-3-3-5-7-8--|
B|-3-3-------------------------------------|
G|-----------------------------------------|
D|-----------------------------------------|
A|-----------------------------------------|
E|-----------------------------------------|


E|--8-7-8p7p5-3-5~--3-5-7-8-7p8---3-5--3-3~|
B|-----------------------------10----------|
G|-----------------------------------------|
D|-----------------------------------------|
A|-----------------------------------------|
E|-----------------------------------------|




D              Bm              G                A7
   Vem e eu mostrarei que o meu caminho te leva ao pai. 
        D             Bm            G             A7
   Guiarei os passos teus e junto a Ti hei de seguir. 
             D         F#          G      A7
   Sim, eu irei e saberei como chegar ao fim
            D           F#             G      A7      D   (Bm G A7 D)
   De onde vim pra onde vou, por onde irás, irei, também. 

    D             Bm                G         A7
   Vem e eu te direi o que ainda estás a procurar
         D            Bm          G            A7
   A verdade é como o sol e invadirá o teu coração. 
            D           F#           G      A7
   Sim eu irei e aprenderei minha razão de ser 
               D              F#          G      A7     D     (Bm G A7 D)
   Eu creio em Ti que crês em mim, e Tua luz, verei a luz. 

   D              Bm         G           A7
   Vem, e eu te farei da minha vida participar
        D           Bm            G          A7
   Viverás em mim aqui: viver em mim é o bem maior.
            D          F#          G       A7
   Sim, eu irei e viverei a vida inteira assim.
          D        F#                  G     A7        D   (Bm G A7 D)
   Eternidade é, na verdade, o amor vivendo sempre em nós.

   D                  Bm                 Em          A7
   Vem, que a terra espera quem possa e queira realizar
        D              Bm          Em           A7
   com amor, a construção de um mundo novo muito melhor!
            D         F#               G       A7
   Sim, eu irei e levarei Teu nome aos meus irmãos.
           D           F#            G       A7    D   (Bm G A7 D)
   Iremos nós e o Teu amor vai construir enfim a PAZ!

482 visualizações

A7

 A7

Bm

 Bm

D

 D

Em

 Em

F#

 F#

G

 G

Quer aprender a desenvolver e criar sites?

Então curta a página do desenvolvedor do Club da Cifra Católica a Blue Bezer no Facebook.