Católica

Exibir cifra de:

Violão Guitarra Contra-Baixo Bateria

Alterar tom:

Alterar texto:

Eu Navegarei(tablatura)

Católica

Tom: D#


E|------5--3--1---3----5---------------------------------------|
B|------------------------------------------------|
G|--------------------------------------------------|2x
D|---------------------------------------------------|
A|--------------------------------------------------------|
E|--------------------------------------------------------|


E|----------------------------------------------|
B|-1-1-0---0-1-0----1-1-1-3-1-0-----------------|
G|-------2-------2----------------4-4-4-5-4-2---|
D|----------------------------------------------|1 refrão
A|----------------------------------------------|
E|----------------------------------------------|


E|---------------|
B|---------------|
G|-2-2-2-4-2-1-1-|
D|---------------|    2 refrão  (repete as 2 partes do refrão 2x)
A|---------------|
E|---------------|


Obs: as notas que seguem o solo são Am G F E (sempre nessa ordem).

2986 visualizações

Sabe quem é o compositor? Envie pra gente.